Pag 1 di 2 12 UltimaUltima
Risultati da 1 a 25 di 40

Discussione: Tablature e accordi

  1. #1
    Lo Zio L'avatar di Il  Comandante
    Data Registrazione
    15-09-02
    Località
    Bologna
    Messaggi
    2,100

    Predefinito Tablature e accordi

    In questo topic(che Pegasus topperà ),andranno postate tablature e accordi per chitarra delle canzoni dei Pink Floyd,per eventuali dubbi e chiarimenti,aprite un topic a parte,ma non postate qui,per evidenti motivi di ordine,inizio io con la stupenda wish you were here:
    intro(rhythm guitar)

    ----------------------3----------------3 -- X 2
    ----------------------3----------------3 --
    ----------------------0-----0----------0 --
    ------------0---2-----2--------2--0----0 --
    -------0>2-----------------------------X--
    ----3----------------------------------3 --


    -----------------3------------------3-- X 2 then repeat the whole thing
    -----------------3------------------3-- with the lead part below
    -----------------0------------------0--
    ----------0---2--2----2---0---------0--
    -----0>2---------------------2---0--X--
    --3---------------------------------3--

    -----3--------- This is only for the last part of the intro before the verse
    -----3---------
    -----0---------
    -----0---------
    -----2---------
    --3--3---------



    Symbols:

    | quarter note |. dotted quarter note

    __ __
    | eight note |. dotted eighth note

    == ==
    | sixteenth note |. dotted sixteenth note

    } quarter rest H hammer-on

    `/ eighth rest P pull-off

    "/ sixteenth rest > accented strum/pick

    B bend R reverse bend

    UB unison bend S slide (slide upto note = \)

    ^ downstroke v upstroke

    * staccato ~ vibrato

    { quarter note pause } eight note pause

    x muted note



    Moderateley slow

    Emi 3 G
    === === ===== ===
    } |S| | | | | |S| | |. -S| | | {
    E ||----------------------------------|--- -------------------------------|
    B ||----------3----5---3--------------|--- -------------------------------|
    G ||-----2-4---------4---------4-2-0--|--- -------------------------------|
    D ||----------------------------------|--- 0-------0-0--------------------|
    A ||----------------------------------|--- ----\-2------------------------|
    E ||----------------------------------|--- -------------------------------|


    Emi G
    _ ____ _ ______===
    } |S| -S| |S| -S|P| |S| -S|P| 0 -
    E ||---3-5-\-3------------------------|-3- -------------------------------|
    B ||---3-5-\-3--3-5--\-3----3-5--\-3--|-0- -------------------------------|
    G ||------------2-4--\-2-0--2-4--\-2-0|-0- -------------------------------|
    D ||----------------------------------|-0- -------------------------------|
    A ||----------------------------------|-2- -------------------------------|
    E ||----------------------------------|-3- -------------------------------|





    Emi A
    === ===__ === === ___=== __
    } |S| | | |~~ } R|P| | | } | B | | | B| |.
    E ||----------------------------------|--- -------------------------------|
    B ||---------3----5---(7)5-3----------|--- ------3-5----------------------|
    G ||----2-4----4--------------4-------|--2 --4(6)----4(6)---2-------------|
    D ||----------------------------------|--- -------------------------------|
    A ||----------------------------------|--- -------------------------------|
    E ||----------------------------------|--- -------------------------------|


    Emi G
    === ==x__ ___ __ ===__ ===
    } |S| | | |~~~| B| |P| | |. B|R| 0
    E ||----------------------------------|--- -------------------3-----------|
    B ||---------3----5----5(7)-5-3--5----|--- -------------------0-----------|
    G ||----2-4---------------------------|--2 ---4(6)2------0----0-----------|
    D ||----------------------------------|--- -------------------0-----------|
    A ||----------------------------------|--- -------------------2-----------|
    E ||----------------------------------|--- -------------------3-----------|


    C D
    So, so ya think you can tell
    Am G D
    heaven from hell, blue skies from pain, can you tell a green field
    C Am G
    from a cold steel rail? A smile from a veil? Do ya think ya can tell?
    C D Am
    did they get you to trade, your hero's for ghosts, hot ashes for trees
    G D C
    hot air for a cool breeze, cold comfort for change, did you exchange,
    Am G
    a walk on part in the war, for a lead role in a cage?

    (guitar solo played over intro) (added by Andreas Sjolund)
    (Actually, this part is sung over the guitar solo)

    --------10-10-------10-10---12-10-10---- ------------------------
    ---10/12-------10/12-----------------12- ------------------------
    ---------------------------------------- ------------------------
    ---------------------------------------- ------------------------
    ---------------------------------------- ------------------------
    ---------------------------------------- ------------------------

    ---------10-10-10-12-10----------------- ------------------------
    ---10/12--------------------12p10p8----- ------------------------
    -----------------------------------7-7-- -9-7--------------------
    ---------------------------------------9 ------------------------
    ---------------------------------------- ------------------------
    ---------------------------------------- ------------------------

    ----------------10-10-10-----------12--- ------------------------
    -----8-10-10/12---------10--12/14----14p 12p10-------------------
    ---9------------------------------------ ------------------------
    ---------------------------------------- ------------------------
    ---------------------------------------- ------------------------
    ---------------------------------------- ------------------------
    G
    ---------10---------------------------12 ------------------------
    ---10/12----12p10p8-10-12-12-8--12/14--- --14p12p10--8-----------
    ---------------------------------------- ------------------------
    ---------------------------------------- ------------------------
    ---------------------------------------- ------------------------
    ---------------------------------------- ------------------------

    C D
    How I wish, how I wish you were here,
    Am G D
    Were just two lost soles simming in a fish bowl, year after year,
    C Am
    Running over the same old ground, but have we found the same old fears,
    G
    wish you were here

    (guitar solo, played over intro fig.)
    (This second guitar solo is almost identical to the first, with very
    slight variations on the same basic:
    --------10
    --10/12
    and
    --------12
    --12/14--
    themes!)


  2. #2
    Lo Zio L'avatar di Playnotmaker
    Data Registrazione
    19-04-03
    Località
    Among 4 Strings
    Messaggi
    2,222

    Predefinito Re: Tablature e accordi

    adesso corro a comprare una chitarra
    non posso resistere...

  3. #3
    Il Nonno L'avatar di Pegasus
    Data Registrazione
    28-02-02
    Località
    Mestre
    Messaggi
    8,200

    Predefinito Re: Tablature e accordi

    Playnotmaker ha scritto dom, 13 luglio 2003 alle 11:47
    adesso corro a comprare una chitarra
    non posso resistere...
    Non sei l'unico, ma forse fra poco scoprirò anche il mondo della chitarra!!!

  4. #4
    Lo Zio L'avatar di liber666
    Data Registrazione
    23-07-02
    Località
    Messina
    Messaggi
    2,268

    Predefinito Re: Tablature e accordi

    io avevo imparato la prima parte dell'assolo di comfortably numb..se ho tempo la posto

  5. #5

    Predefinito Re: Tablature e accordi

    non potevo mancare

    MATILDA MOTHER
    Pink Floyd

    B A/B Gmaj7/D F#(addB)

    Bsus4 Asus2 G6 F#7sus4
    There was a king who ruled the land.

    Bsus4 Asus4 G6 F#7sus4
    His Majesty was in command.

    Bsus4 Asus2 G6 F#7sus4 Bsus4 Asus2 G6 F#7sus4
    With silver eyes the scarlet eagle showered silver on the people.

    G D A G D E
    Oh____, mother, tell me more.

    N.C.
    Why'd you have to leave me there,

    B
    Hanging in my infant air, waiting?

    N.C.
    You only have to read the lines of scribbly black and ev'rything shines.


    Bsus4 Asus2 G6 F#7sus4
    Across the stream with wooden shoes,

    Bsus4 Asus2 G6 F#7sus4
    Bells to tell the king the news,

    Bsus4 Asus2 G6 F#7sus4 Bsus4 Asus2 G6 F#7sus4
    A thousand misty riders climb up higher once upon a time.

    G D A
    Wondering and dreaming.

    G D E
    The words have different meanings.

    A G E F#
    Yes, they did.


    Bsus4 Asus4 G6 F#7sus4
    Of all the time spent in that room,

    Bsus4 Asus2 G6 F#7sus4
    The doll's house darkness, old perfume,

    Bsus4 Asus2 G6 F#7sus4 Bsus4 Asus2 G6 F#7sus4
    And fairy stories held me high on clouds of sunlight floating by.

    G D A G D E
    Oh____, mother, tell me more.

    A G E
    Tell me more.



  6. #6
    Il Nonno L'avatar di Pegasus
    Data Registrazione
    28-02-02
    Località
    Mestre
    Messaggi
    8,200

    Predefinito Re: Tablature e accordi

    Posto quella di The Thin Ice, che a me piace un casino, anche se non c'ho capito un gran che su sta tablatura...


    THE THIN ICE

    "The Wall"




    INTRO:(with baby crying)
    C Am7 Fmaj9 G
    C G F C/G Am7

    VERSE:
    C Am
    Mamma loves her baby
    F G
    and daddy loves you too
    C Am
    and the sea may look warm to you babe
    F G
    and the sky may look blue

    C G F C/G Am
    Ooooooooooooh babe
    C G F C/G Am Am7 Am6
    Oooooooh baby blue
    C G F C Am D7 G
    Ooooooooooh ooooooh babe

    C Am
    If you should go skating
    F G
    On the thin ice of modern life
    C Am
    Dragging behind you the silent reproach
    Fmaj7 G
    Of a million tear stained eyes
    C Am
    Dont be surprised, when a crack in the ice
    F G
    Appears under your feet
    C Am
    You slip out of your depth and out of your mind
    F G
    With your fear flowing out behind you
    N.C.
    As you claw the thin ice

    SOLO:
    Gtr. 1
    e-|------------------------------------- ----------------------------|
    B-|------------------------------------- ----------------------------|
    G-|-7B(9)---R---(7)-7~~~~~~~~~~~~~~~7B(1 0)--R---(7)-7B(9)-----------|
    D-|------------------------------------- ----------------------------|
    A-|------------------------------------- ----------------------------|
    E-|------------------------------------- ----------------------------|
    | Gtr. 2
    e-|------------------------------------- ----------------------------|
    B-|------------------------------------- ----------------------------|
    G-|-9---------------7---------X-X-X-10-- ------------9---------------|
    D-|-9---------------7---------X-X-X-10-- ------------9---------------|
    A-|-7---------------5---------X-X-X-8--- ------------7---------------|
    E-|------------------------------------- ---------------------X-12\--|

    w/bar
    |-----------------5---5----------------- -----------------------------|
    |---------------5---8------------------- -----------------------------|
    |----------7B(9)--------7-7B(R(7)P5--- 5----------------------------|
    |-------------------------------------7- --7-6-5----------------------|
    |--------------------------------------- --------7-6-5-3---3--\(0)/-\-|
    |--------------------------------------- ----------------5------------|
    | * w/bar
    |--------------------------------------- -----------------------------|
    |--------------------------------------- -----------------------------|
    |-2------------------------------------- -----------------------------|
    |-2------------------------------------- -----------------------------|
    |-0------------------------------------- -----------------------------|
    |--------------------------------------- -----------------(-12)/----0-|
    | *depress bar equivalent to 12 frets down, strike note & slowly release

    |--------------------------------------- --------------------------|
    |--------------------------------------- --------------------------|
    |-----------------7---7----------------- ----------9---9-----------|
    |-----------------7---7----------------- ----------9---9-----------|
    |-7~~~~~~~~~~~~~~~5---5-----------8~~~~~ ~~~~~~~~~~7---7-----------|
    |--------------------------------------- ---------------------12\--|
    |
    |--------------------------------------- --------------------------|
    |--------------------------------------- --------------------------|
    |-9---------------7---------------10---- ----------9---9-----9-9\--|
    |-9---------------7---------------10---- ----------9---9-----9-9\--|
    |-7---------------5---------------8----- ----------7---7-----7-7\--|
    |--------------------------------------- --------------------------|

    |----------------17------------------17- -----17------17------------17---|
    |-------------17----20-17-20-20B(22)~--2 0B(22)-20B(22)-20B(22)-20B(22)~~|
    |-2----19B(21)-------------------------- --------------------------------|
    |-2------------------------------------- --------------------------------|
    |-0------------------------------------- --------------------------------|
    |--------------------------------------- --------------------------------|
    |
    |--------------------------------------- --------------------------------|
    |--------------------------------------- --------------------------------|
    |-2---------------------------2------2-- --------------------------------|
    |-2---------------------------2------2-- --------------------------------|
    |-0---------------------------0------0-- --------------------------------|
    |--------------------------------3B(5)-- --------------------------------|

    |--------------------------------------- ------------------------------|
    |-15B(17)--R--(15)-15~~~~~~~~~~~~~~~15B( 1--R--(15)--15B(17)~~~~~~~~~|
    |--------------------------------------- ------------------------------|
    |--------------------------------------- ------------------------------|
    |--------------------------------------- ------------------------------|
    |--------------------------------------- ------------------------------|
    |
    |--------------------------------------- ------------------------------|
    |--------------------------------------- ------------------------------|
    |-9----------------7----------------10-- --------------9---------------|
    |-9----------------7----------------10-- --------------9---------------|
    |-7----------------5----------------8--- --------------7---------------|
    |--------------------------------------- ------------------------------|

    rake-]
    |--------------------------------15-17B( 19)-----------------------------|
    |-15B(17)--R--(15)-15~~~~~~~~--15------- --------------------------------|
    |----------------------------16--------- --------------------------------|
    |--------------------------------------- --------------------------------|
    |--------------------------------------- --------------------------------|
    |--------------------------------------- --------------------------------|
    |
    |--------------------------------------- --------------------------------|
    |--------------------------------------- --------------------------------|
    |-9----------------10---------------12-- --------------------------------|
    |-9----------------10---------------12-- --------------------------------|
    |-7----------------8----------------10-- --------------------------------|
    |--------------------------------------- --------------------------------|

    fade out
    |--------------------------------------- --------------------------||
    |-17------------------------------------ --------------------------||
    |-17------------------------------------ --------------------------||
    |-17------------------------------------ --------------------------||
    |-15------------------------------------ --------------------------||
    |--------------------------------------- --------------------------||
    |
    |--------------------------------------- --------------------------||
    |--------------------------------------- --------------------------||
    |--------------------------------------- --------------------------||
    |-10------------------------------------ --------------------------||
    |-10------------------------------------ --------------------------||
    |-8------------------------------------- --------------------------||





  7. #7
    Il Nonno L'avatar di Pegasus
    Data Registrazione
    28-02-02
    Località
    Mestre
    Messaggi
    8,200

    Predefinito Re: Tablature e accordi

    Tablatura per Basso

    Pigs (Three Different Ones)
    Pink Floyd



    Where it says to play different figures, they are located on the bottom of the page. Sorry this is so messy. but its still somewhat legible.



    ---16h14p16-----16h14p16-----14--12--11- -12\11\9\7-----9-----(9/4/16-----19-----
    ---------------------------------------- ----------------------------------------
    ---------------------------------------- ----------------------------------------
    ---------------------------------------- ----------------------------------------



    p16-----17--------16-----14-----12--14\1 2\11--12\11\9--------11-----------------
    ---------------------------------------- -------------------------12------10-----
    ---------------------------------------- -----------------------------10---------
    ---------------------------------------- ----------------------------------------



    -----------------12-----12/14--11------- --------------------9-------------------
    ---(10)\---------------------------12--- --14-----(14)\---------9----------------
    -----------7---------------------------- --------------------------7-------------
    ---------------------------------------- ----------------------------------------



    11--11--12-----(12)--11/12/14-----(14)\| |---------------------------------||----
    ---------------------------------------| |*-------------------------------*||----
    ---------------------------------------| |*--7-----(7)\0------------------*||----
    ---------------------------------------| |-------------------8-----(\3---||----


    Verse
    ||-------9--------9-----------9--------9 ----------------------------------------
    ||*------------------------------------- ----------------------------------------
    ||*---7-----5--7--------5--7-----5--7--- --5-----2--3-----2--3-----2--3--2--3----
    ||-------------------------------------- ----------------------------------------



    ---------------------------------------- ----------------------------------------
    ---------------------------------------- -----------------------------5----------
    ---------------------------------------5 -----7-----5--7-----------7-----5--5----
    ---2--3-----3--3-----3--3-----3--2------ -----------------0----------------------



    ---------------------------------------- --9--------9--------------9--------9----
    ------------------------x-----5--------- ----------------------------------------
    7-----7--5--7--------------5-----5--5--7 -----5--7-----------5--7-----5--7-------
    ---------------0------------------------ ----------------------------------------

    It says this but I think they mean fig.2
    Play Fig. 3 (third verse) try it out.
    ---------------------------------------- -----|----------------------------------
    ---------------------------------------- -----|----------------------------------
    5-----2-----3-----2--3-----2--3--2--3--- -----|----------------------------------
    ---------------------------------------- --2--|---3-----3--3-----3--3-----3------



    -----------------9-----------9---------- -------------|--------------------------
    ---------------------------------------- -------------|--------------------------
    ---5--7--7\5--7-----0--5--7-----7--7--7- -5-----2-----|--------------------------
    2--------------------------------------- -------------|--------------------------


    Fig.1(2nd verse), Fig.3 (third verse)
    ---------------------------------------- ----------------------------------------
    ---------------------------------------- ----------------------------------------
    ----3-----3--3-----3--3--3-----2--0----- ----------------------------------------
    ---------------------------------------- 3-----3--3-----3--3-----3--2--3--4------


    You're nearly...
    ||-------------------------------------- ----------------------------------------
    ||-------------------------------------- ----------7-----------------------------
    ||-------------------------------------- ----------------------------------------
    ||---5-----5--5-----5--5-----3--4-----5- ----5--5--------5--5-----3--4--5--------



    ---------------------------------------- ----------------------------------------
    ---------------------------------------- -----------7----------------------------
    ---------------------------------------- ----------------------------------------
    5--5--5-----5-----3--4-----4-----5--5--5 --------5-----------3--4-----5----------



    ---------------------------------------- -----------------------------|----------
    ---------7------------------------------ -----7-----------------------|----------
    ---------------------------------------- -----------------------------|----------
    5--5--5--------5-----3--4-----5-----5--5 --5--------5-----3--4-----4--|----------


    To CODA (3rd verse)
    ---------------------------------------- ----------------------------------------
    -------------7-----------7-------------- ------------------------7---------------
    ---------------------------------------- ----------------------------------------
    ----5--5--5-----------5--------3--4----- 4--------5--5--5-----5-----------3------



    ---------------------------------------- -------------9/12--11-------------------
    ---------------------------------------- -----------------------12------10-------
    ---------------------------------------- -------7-------------------10-----------
    4-----4-----5--5--5--------5--5-----5--5 /7--------------------------------------



    ---------------------------------------- ----------------------------------------
    (10)\----------------------------------- ----------------------------------------
    --------3--2/7-----7--7\---------5------ -----------------5----------------------
    ---------------------------------------0 --0--0-----------------0--0--0----------



    -----------------------||--------------- --------------------------------9/12----
    ----------------------*||--------------- --------7-------------------------------
    ---5\------7\------5--*||--------------- --------------------------7-------------
    --------0--------------||-----5--5--5--- -----5-----5--5--5----------------------



    11-------------------------------------- ----------------------------------------
    ----12---------------------------------- ----------------------------------------
    --------10\---3-----------3-----3--3---- ----------------------5--------7--------
    --------------------------------------3- -0-----0--0--0--------------------0-----



    ---------------------------------------- ----------------|-----------------------
    ---------------------------------------- ----------------|-----------------------
    7\------5--------------------5--------7- ----------5-----|-----------------------
    --------------0--0--0--------------0---- -0-----------7--|-----0-----0--0--------


    play 3 times
    ||----------------||--||---------------- ----||----------------------------------
    ||*--------------*||--||*--------------- ---*||----------------------------------
    ||*--------------*||--||*------3-----3-- 3--*||-----3-----3--3-----1-------------
    ||---0-----0--0---||--||---------------- ----||-----------------------0----------



    ---------------------------------------- --------------------------------||------
    ---------------------------------------- --------------------------------||*-----
    ---------------------------------2------ -----------7--------------------||*-----
    0--0--------0-----0-----0--0--------0--- --0--0-----------0-----0--0-----||------


    play 3 times play 3 times
    -----------------||--------------------- -------------------||-------------------
    ----------------*||--------------------- -------------------||*------------------
    ----------------*||-----2--2--2--2--2--2 --2--2--2----------||*------------7-----
    -3--------3--3---||--------------------- -----------------7\||-------0-----------


    play 3 times
    -------------------||------------------- -------------------||-------------------
    ------------------*||------------------- -------------------||*------------------
    7-----------7--7--*||-----------7--7---- -7--------7--------||*---3-----3--3-----
    ------0------------||-----0------------- ----0--------------||-------------------



    -------------------||------------------- ----------------------------------------
    ------------------*||------------------- ----------------------------------------
    ---3-----3--3--1--*||--3-----3--3-----3- ----3--3--1--------------7--------------
    -------------------||------------------- ----------------0-----------0--0--------



    ---------------------------------------- ----------------------------------------
    ---------------------------------------- ----------------------------------------
    7-----7--------7--7-----------7--7--5--- --7--------------7--7-----------7--7----
    ---------0--------------0--------------- -----------0--------------0-------------



    ---------------------------------------- ----------------------------------------
    ---------------------------------------- ----------------------------------------
    ------------7--7--------------7--7-----7 \---3-----3--3-----3-----3--3--3--------
    ------0--------------0--0--------------- ----------------------------------------



    ---------------------------------------- ----------------------------------------
    ---------------------------------5-----5 ----------------------------------------
    ---3-----3--3--------3-----3--3--------- --3-----3--3-----3-----3--3--------2----
    ---------------------------------------- ----------------------------------------



    ---------------------------------------- ----------------------------------------
    ---------------------------------------- ----------------------------------9-----
    2--2--2--2--2--2--2--2------------------ ----7--7--------------7-----x--x--------
    ------------------------------7\------0- ----------0-----0-----------------------



    ---------------------------------------- ------------------------------/16-------
    ---------------------------------------- ----------------------------------------
    7--------7--7-----7--------7------------ --------7--7-----5--7--------7----------
    ---0-----------------0-----------10\---- --0--------------------0----------------



    12-------------------------------------- ----------------------------------------
    ---------------------------------------- -----------------------------------5----
    -------------------------7--------7--7-- ---5\---3-----3--3-----3-----3----------
    ----------0-----7--7--------0----------- ----------------------------------------



    5--------------------------------------- ----------------------------------------
    ---------------------------x--x/10--(10) \---------------------------------------
    ------3-----3--3-----3--3--------------- -9\------3-----3--3--------3-----3------
    ---------------------------------------- ----------------------------------------



    ---------------------------------------- ----------------------------------------
    ---------------------------------------- ----------------------------------------
    3--------3-----3--3-----3-----3-----1--- -----------7--------------7-------------
    ---------------------------------------- --0--------------0--0--------8--7\0-----



    -------------------------------16--18--1 6--15\12\7\0----------------------------
    ---------------------------17----------- ----------------------------------------
    ------------7--7-----7------------------ --------------------7--7-----7----------
    ------0-----------------0--------------- --------------0-----------------0-------



    ---------------------------------------- ----------------------------------------
    ---------------------------------------- ----------------------------------------
    7--7-----7--7-----7-----------7--7-----7 --------------------3-----3--3-----3----
    ------------------------0--------------- --0-----12\-----------------------------



    -------------------------------------/14 --12-----15--12\------------------------
    ---------------------------------------- ----------------------------------------
    3-----3--3--1-----3-----3--3-----3------ -------------------3-----3--3-----3-----
    ---------------------------------------- ----------------------------------------



    ---------------------------------------- -----------------------------------|----
    ---------------------------------------- -----------------------------------|----
    3-----3--3-----3-----------2--2--2--2--2 --2--2--2--2--2--2--2--2--2--2--2--|----
    ---------------------------------------- -----------------------------------|----



    ---------------------------------------- -----16p14h16-----16-----16p14h16-------
    ---------------------------------------- ----------------------------------------
    ---------------------------------------- ----------------------------------------
    0--------(12)--------------------------- ----------------------------------------



    (16)\---14p12h14-----(14)\---12p11h12--- --(12)\---11p9h11-----(11)\---9p7h9-----
    ---------------------------------------- ----------------------------------------
    ---------------------------------------- ----------------------------------------
    ---------------------------------------- ----------------------------------------



    -------------------------5-----------5/1 6--------19p16-----------17-------------
    9--------------------------------------- ----------------------------------------
    ---7-----------(7)\--------------------- ----------------------------------------
    ---------------------------------------- ----------------------------------------



    16--14--12--14--12\11-----12--11\9------ -----11---------------------------------
    ---------------------------------------- ---------12------------10---------------
    ---------------------------------------- -------------------10-------------------
    ---------------------------------------- -------------(12)-----------------------



    ---------------------------------------- ----------------------------------------
    (10)\----------------------------------- ----------------------------------------
    --------7-----(7)\0--------------------- ------7-----(7)\0-----------------------
    ---------------------------8-----(\3-- -------------------------8-----(------


    CODA
    ----------------|----------------------- ----------------------------------------
    ----------------|---------------------7- ----------------------------------------
    ----------7--5--|----------------------- ----------------------------------------
    \3--------------|---------5--5--5------- ----5--5-----3--4-----5-----5--5--5-----



    ------------------------------------9--- --12-----11-----------------------------
    ---------------------------------------- -------------12---------10--------------
    ------------------------------7--------- -----------------10---------------10----
    ------5--5--------5--5------------------ ----------------------------------------



    ---------------------------------------- ----------------------------------------
    ----5----------------------------------- ----------------------------------------
    \3-----5-------7-----------5--------7--- -----------5--------7-----------5-------
    ----------5\0--------------------0-----0 -----------------0-----0----------------


    slow slide Outro Guitar Solo
    ----------------------------|------9---- ----9-----------9-----------9-----------
    ----------------------------|----------- ----------------------------------------
    ---7------------------------|---7-----5- -7--------5--7--------5--7--------5-----
    0-----0--------15-\---7--0--|----------- ----------------------------------------



    ---------------------------------------- --------------------9--------9----------
    ---------------------------------------- ----------------------------------------
    ---2-----3-----3--2--3-----2--3--2--3--- --5-----5--------7-----5--7--------5----
    ---------------------------------------- ----------------------------------------



    ---9-----------9------------------------ ----------------------------------------
    ---------------------------------------- ----------------------------------------
    7--------5--7--------5-----2-----3-----3 --2--3--------2--3--3--3--3--3-----5----
    ---------------------------------------- ----------------------------------------



    ------------------------------9-----9--- --9-------------------------------------
    ---------------------------9-----------9 ----------------------------------------
    5-----7-----7--7-----7--7--------------- -----5--------3-----3--3-----3--3--3----
    ---------------------------------------- ----------------------------------------



    ---------------------------------------- ----------------------------------------
    ---------------------------------------- ----------------------------------------
    5-----7-----7-----7--7-----7--7-----7--- --5-----3-----3--3--3--3--3-----3--3----
    ---------------------------------------- ----------------------------------------



    ---------------------------------------- ----------------------------------------
    ---------------------------------------- ----------------------------------------
    3--3--3--3--3--5--5-----7--7--7--7--7--7 --7--7--7--7--7--7--7--7--5--5-----3----
    ---------------------------------------- ----------------------------------------


    play four times
    ---------------------------------------- -----||----------9-----11------12-------
    ---------------------------------------- -----||*--------------------------------
    3--3--3--3--3--3--3--3--3--3--3--3--3--5 --5--||*------7-----9------10-----------
    ---------------------------------------- -----||---------------------------------



    ----14------16------14------12---------- 5--------7-----9-----11---------12------
    ---------------------------------------- ----------------------------------------
    12------14------12------10------9\---3-- ------5-----7-----9---------10----------
    ---------------------------------------- ----------------------------------------



    ------11--------9---------||-----9------ --9--------9--------9--------9----------
    -------------------------*||------------ ----------------------------------------
    ---9---------7--------5--*||--7--------7 --------7--------7--------7--------7----
    --------------------------||------------ ----------------------------------------



    9--------------------------------------- ----------------------------------------
    ---------------------------------------- ----------------------------------------
    ------7\5-----2-----3--3--3--3--3--3--3- -3--3--3--3--3--3--3--------------------
    ---------------------------------------- ----------------------3\---0-----0------



    ---------------------------------------- ----------------------------------------
    ---------------------------------------- ----------------------------------------
    ---7-----7-----------7-----7-----5-----3 --3--3--3--3--3--3--3--3--3--3--3--3----
    ---------------0------------------------ ----------------------------------------



    ---------------------9------------------ --------9-------------------------------
    ---------------------------------------- -----9-----9-----9----------------------
    5-----7-----7-----7--------7--7--7--7--7 --7-----------7-----------3--3--3--3----
    ---------------------------------------- ----------------------------------------



    ---------------------------------------- --9--------11---------12--------11------
    ---------------------------------------- ----------------------------------------
    3--3--3--3--3--3--3--3--3--3--3--3-----7 --------9---------10---------9----------
    ---------------------------------------- ----------------------------------------



    ------9--------7--------9--------7------ --5--------7--------9--------11---------
    ---------------------------------------- ----------------------------------------
    ---7--------5--------7--------5--------3 --------5--------7--------9-------------
    ---------------------------------------- ----------------------------------------



    ----12--------11---------12--------11--- -----9--------11---------12-------------
    ---------------------------------------- ----------------------------------------
    10---------9---------10---------9------- --7--------9---------10---------9-------
    ---------------------------------------- ----------------------------------------



    11---------12--------11--------9-------- ---------9--------7--------5------------
    ---------------------------------------- ----------------------------------------
    -------10---------9---------7--------5-- ------7--------5--------3--------2------
    ---------------------------------------- ----------------------------------------


    Fade out
    ------5--------7-----9---------11------|
    ---------------------------------------|
    ---3--------5-----7--------9-----------|
    ---------------------------------------|



    Figure 1 Figure 2
    -||--||--||----------------------------- -------------||--||--||-----------------
    -||--||--||----------------------------- -------------||--||--||------5-----5----
    -||--||--||----------------------------- -------------||--||--||-----------------
    -||--||--||--3-----3--3-----3--3-----3-- 3--3-----(3)\||--||--||---3-------------



    ---------------------------------9------ --9--------------9--------9-------------
    ---------------------------------------- ----------------------------------------
    ------------------------5-----7-----5--7 -----------5--7-----5--7-----5----------
    ---2--3-----3-----2--------------------- -----------------------------------7----


    Figure 3
    ||--||--||------------------------------ ----------------------------------------
    ||--||--||------------------------------ ----------------------------------------
    ||--||--||---3--------3--3--------3--3-- ------3--3-----2--0---------------------
    ||--||--||------------------------------ ---------------------3--------3--3------



    ---------------------------------------- ----------------------------------------
    ---------------------------------------- ----------------------------------------
    ---------------------------------------- ----------------------------------------
    3--------3--------0--3--2--3--4--------- ----------------------------------------

  8. #8
    Il Nonno L'avatar di Pegasus
    Data Registrazione
    28-02-02
    Località
    Mestre
    Messaggi
    8,200

    Predefinito Re: Tablature e accordi

    Raga raga gioite!!!!!! Dopodomani mi arriva la chitarra, quindi me dovete aiutare . Sia ben chiaro che io non so na mazza di niente. Se avete qualche sito-libro o altre robe da consiglirmi, SCRIVETE!!!!!!!

    Denghiu a tutti

  9. #9
    Lo Zio L'avatar di liber666
    Data Registrazione
    23-07-02
    Località
    Messina
    Messaggi
    2,268

    Predefinito Re: Tablature e accordi

    appena torno a messina (domani) vedro' cio' che potro' fare

  10. #10
    Il Nonno L'avatar di Pegasus
    Data Registrazione
    28-02-02
    Località
    Mestre
    Messaggi
    8,200

    Predefinito Re: Tablature e accordi

    Bella li!

  11. #11
    Lo Zio L'avatar di Playnotmaker
    Data Registrazione
    19-04-03
    Località
    Among 4 Strings
    Messaggi
    2,222

    Predefinito Re: Tablature e accordi

    toccherà comprarla anche a me la chitarra.....queste tablature mettono una voglia.....

  12. #12
    Il Nonno L'avatar di Pegasus
    Data Registrazione
    28-02-02
    Località
    Mestre
    Messaggi
    8,200

    Predefinito Re: Tablature e accordi

    Liber la chitarra è arrivata, ho anche un piccolo libricino che ti isegna qualcosa (eeeee) ma non si capisce na sega... quindi liber... datti na mossa

  13. #13
    Lo Zio L'avatar di liber666
    Data Registrazione
    23-07-02
    Località
    Messina
    Messaggi
    2,268

    Predefinito Re: Tablature e accordi

    l'unica cosa che t posso dire e' che al numero della tablatura corrisponde il numero del tasto in cui devi poggiare il dito...

    PS che chitarra e'?

  14. #14
    Il Nonno L'avatar di Pegasus
    Data Registrazione
    28-02-02
    Località
    Mestre
    Messaggi
    8,200

    Predefinito Re: Tablature e accordi

    liber666 ha scritto mer, 27 agosto 2003 alle 00:26
    l'unica cosa che t posso dire e' che al numero della tablatura corrisponde il numero del tasto in cui devi poggiare il dito...

    PS che chitarra e'?
    No no, io pensavo che tu conoscessi qualche libro più approfondito per imparare a suonarla da autodidatta, visto che adesso non c'ho il tempo per fare corsi.

    La chitarra è una classica acustica.

  15. #15
    Lo Zio L'avatar di Playnotmaker
    Data Registrazione
    19-04-03
    Località
    Among 4 Strings
    Messaggi
    2,222

    Predefinito Re: Tablature e accordi

    martedì vado a comprare la chitarra

    la la la lalala lala la lalalala

  16. #16
    Lo Zio L'avatar di liber666
    Data Registrazione
    23-07-02
    Località
    Messina
    Messaggi
    2,268

    Predefinito Re: Tablature e accordi

    yeah!

  17. #17
    Il Fantasma L'avatar di cronomancer15
    Data Registrazione
    06-05-03
    Località
    Bergamo
    Messaggi
    177

    Predefinito Re: Tablature e accordi

    One of these day...per servirvi... quando si prova con il gruppo e si è in fase morta avendo due bassi nella band si parte a suonare questo capolavoro...


    Bass #1
    (0:36)

    G ||-------------------|------------------ |------------------|------------------|
    D ||-------------------|------------------ |------------------|------------------|
    A ||--2----2--2--2--2--|--2----2--2----2-- |--2----2--2----2--|--2----2--2----2--|
    E ||-------------------|------------------ |------------------|------------------|

    Both Basses begin at 0:49
    Bass #1
    G ||-------------------|------------------ |------------------|------------------|
    D ||-------------------|------------------ |------------------|------------------|
    A ||--2--2--2--2----2--|--2----2--2----2-- |--2--2--2--2---2--|--2----2--2----2--|
    E ||-------------------|------------------ |------------------|------------------|

    Bass #2
    G ||-------------------------------------- |------------------|------------------|
    D ||-------------------------------------- |------------------|------------------|
    A ||--2-------2-----2--2----------2----2-- |--2-------2----2--|-2--------2----2--|
    E ||-------------------------------------- |------------------|------------------|

    Both Basses At 1:10
    (Echo Off)
    Bass #1
    G ||-------------------|------------------ |------------------|------------------|
    D ||-------------------|------------------ |------------------|------------------|
    A ||-------------------|------------------ |------------------|------------------|
    E ||--5----5--5-----5--|--5--5--5--5---5-- |-5----5--5-----5--|-5----5--5-----5--|

    Bass #2
    G ||-------------------|------------------ |------------------|------------------|
    D ||-------------------|------------------ |------------------|------------------|
    A ||-------------------|------------------ |------------------|------------------|
    E ||--5-------5--------|--5--------5---5-- |-5-------5--------|-5-------5--------|

    Repeat B again at 1:17
    Bass #1
    G ||-------------------|------------------ |------------------|------------------|
    D ||-------------------|------------------ |------------------|------------------|
    A ||--2--2--2--2----2--|--2----2--2----2-- |--2--2--2--2---2--|--2----2--2----2--|
    E ||-------------------|------------------ |------------------|------------------|

    Bass #2
    G ||-------------------------------------- |------------------|------------------|
    D ||-------------------------------------- |------------------|------------------|
    A ||--2-------2-----2--2----------2----2-- |--2-------2----2--|-2--------2----2--|
    E ||-------------------------------------- |------------------|------------------|

  18. #18
    Il Nonno L'avatar di Pegasus
    Data Registrazione
    28-02-02
    Località
    Mestre
    Messaggi
    8,200

    Predefinito Re: Tablature e accordi

    Liberrrrrr, dammi il nome di quel libro per chitarra del tuo amico!!!

  19. #19
    Lo Zio L'avatar di liber666
    Data Registrazione
    23-07-02
    Località
    Messina
    Messaggi
    2,268

    Predefinito Re: Tablature e accordi

    duqnue il libro si chiama giangi ma ho saputo che tratta di chiatarra classica
    in questi giorni mi informo e t faccio sapere il nome di libri che trattano la chitarra elettrica se vuoi

  20. #20
    Il Nonno L'avatar di Pegasus
    Data Registrazione
    28-02-02
    Località
    Mestre
    Messaggi
    8,200

    Predefinito Re: Tablature e accordi

    liber666 ha scritto mar, 09 settembre 2003 alle 12:26
    duqnue il libro si chiama giangi ma ho saputo che tratta di chiatarra classica
    in questi giorni mi informo e t faccio sapere il nome di libri che trattano la chitarra elettrica se vuoi
    No no io ho la chitarra classica, va benissimo.

  21. #21
    Lo Zio L'avatar di liber666
    Data Registrazione
    23-07-02
    Località
    Messina
    Messaggi
    2,268

    Predefinito Re: Tablature e accordi

    nel giangi ti parla di come suonare la chitarra classica con la mano destra anche,cio'e senza plettro

  22. #22
    Il Nonno L'avatar di Pegasus
    Data Registrazione
    28-02-02
    Località
    Mestre
    Messaggi
    8,200

    Predefinito Re: Tablature e accordi

    liber666 ha scritto mar, 09 settembre 2003 alle 12:32
    nel giangi ti parla di come suonare la chitarra classica con la mano destra anche,cio'e senza plettro
    Oi, dammi nome libro, nome autore e casa editrice

  23. #23
    Lo Zio L'avatar di liber666
    Data Registrazione
    23-07-02
    Località
    Messina
    Messaggi
    2,268

    Predefinito Re: Tablature e accordi

    appena lo trovo lo faccio

    per adesso beccati:
    LE PRIME LEZIONI DI CHITARRA - Julio S. Sagregas - casa editrice BERBEN

  24. #24
    Il Nonno L'avatar di Pegasus
    Data Registrazione
    28-02-02
    Località
    Mestre
    Messaggi
    8,200

    Predefinito Re: Tablature e accordi

    Ho cominciato a fare un po' di accordi a tempo, che casinoooooo!!!

  25. #25
    Lo Zio L'avatar di liber666
    Data Registrazione
    23-07-02
    Località
    Messina
    Messaggi
    2,268

    Predefinito Re: Tablature e accordi

    accordi a tempo?
    cioe'?

Pag 1 di 2 12 UltimaUltima

Permessi di Scrittura

  • Tu non puoi inviare nuove discussioni
  • Tu non puoi inviare risposte
  • Tu non puoi inviare allegati
  • Tu non puoi modificare i tuoi messaggi
  • Il codice BB è Attivato
  • Le faccine sono Attivato
  • Il codice [IMG] è Attivato
  • Il codice HTML è Disattivato